ISO-10303-21;
HEADER;
FILE_DESCRIPTION (( 'STEP AP203' ),
    '1' );
FILE_NAME ('QB-CTZHWP-50.8-633-M.STEP',
    '2020-12-24T01:38:18',
    ( '' ),
    ( '' ),
    'SwSTEP 2.0',
    'SolidWorks 2020',
    '' );
FILE_SCHEMA (( 'CONFIG_CONTROL_DESIGN' ));
ENDSEC;

DATA;
#1 = APPLICATION_CONTEXT ( 'configuration controlled 3d designs of mechanical parts and assemblies' ) ;
#2 = APPROVAL ( #67, 'UNSPECIFIED' ) ;
#3 = ORIENTED_EDGE ( 'NONE', *, *, #83, .T. ) ;
#4 = CARTESIAN_POINT ( 'NONE',  ( 3.000000000000001332, 25.39999999999999858, 0.000000000000000000 ) ) ;
#5 = CARTESIAN_POINT ( 'NONE',  ( -3.000000000000000000, 0.000000000000000000, 25.39999999999999858 ) ) ;
#6 = FACE_OUTER_BOUND ( 'NONE', #108, .T. ) ;
#7 = CARTESIAN_POINT ( 'NONE',  ( -3.000000000000001332, 25.39999999999999858, 0.000000000000000000 ) ) ;
#8 = MECHANICAL_CONTEXT ( 'NONE', #1, 'mechanical' ) ;
#9 = CALENDAR_DATE ( 2020, 24, 12 ) ;
#10 = AXIS2_PLACEMENT_3D ( 'NONE', #4, #38, #61 ) ;
#11 = APPROVAL ( #173, 'UNSPECIFIED' ) ;
#12 = LOCAL_TIME ( 9, 38, 18.00000000000000000, #113 ) ;
#13 = DATE_AND_TIME ( #70, #157 ) ;
#14 = EDGE_CURVE ( 'NONE', #17, #45, #138, .T. ) ;
#15 = DATE_TIME_ROLE ( 'classification_date' ) ;
#16 = CIRCLE ( 'NONE', #133, 25.39999999999999858 ) ;
#17 = VERTEX_POINT ( 'NONE', #39 ) ;
#18 = APPROVAL_PERSON_ORGANIZATION ( #162, #167, #146 ) ;
#19 = DIRECTION ( 'NONE',  ( -1.000000000000000000, -0.000000000000000000, -0.000000000000000000 ) ) ;
#20 = DIRECTION ( 'NONE',  ( 0.000000000000000000, 0.000000000000000000, 1.000000000000000000 ) ) ;
#21 = ADVANCED_BREP_SHAPE_REPRESENTATION ( 'QB-CTZHWP-50.8-633-M', ( #172, #96 ), #62 ) ;
#22 = DIRECTION ( 'NONE',  ( 0.000000000000000000, 0.000000000000000000, 1.000000000000000000 ) ) ;
#23 = DIRECTION ( 'NONE',  ( -1.000000000000000000, -0.000000000000000000, -0.000000000000000000 ) ) ;
#24 = DIRECTION ( 'NONE',  ( -1.000000000000000000, -0.000000000000000000, -0.000000000000000000 ) ) ;
#25 = APPROVAL_PERSON_ORGANIZATION ( #82, #2, #26 ) ;
#26 = APPROVAL_ROLE ( '' ) ;
#27 = SHAPE_DEFINITION_REPRESENTATION ( #123, #21 ) ;
#28 = DATE_AND_TIME ( #52, #105 ) ;
#29 = CC_DESIGN_APPROVAL ( #2, ( #107 ) ) ;
#30 = PERSON_AND_ORGANIZATION_ROLE ( 'design_owner' ) ;
#31 = CC_DESIGN_DATE_AND_TIME_ASSIGNMENT ( #28, #15, ( #58 ) ) ;
#32 = PERSON_AND_ORGANIZATION ( #46, #42 ) ;
#33 = ORIENTED_EDGE ( 'NONE', *, *, #83, .F. ) ;
#34 = CC_DESIGN_SECURITY_CLASSIFICATION ( #58, ( #107 ) ) ;
#35 = CYLINDRICAL_SURFACE ( 'NONE', #168, 25.39999999999999858 ) ;
#36 = LOCAL_TIME ( 9, 38, 18.00000000000000000, #170 ) ;
#37 = DIRECTION ( 'NONE',  ( 0.000000000000000000, 0.000000000000000000, 1.000000000000000000 ) ) ;
#38 = DIRECTION ( 'NONE',  ( -1.000000000000000000, 0.000000000000000000, -0.000000000000000000 ) ) ;
#39 = CARTESIAN_POINT ( 'NONE',  ( 3.000000000000002665, 3.110602869834276865E-15, -25.39999999999999858 ) ) ;
#40 = APPROVAL_STATUS ( 'not_yet_approved' ) ;
#41 = APPLICATION_PROTOCOL_DEFINITION ( 'international standard', 'config_control_design', 1994, #1 ) ;
#42 = ORGANIZATION ( 'UNSPECIFIED', 'UNSPECIFIED', '' ) ;
#43 = APPLICATION_PROTOCOL_DEFINITION ( 'international standard', 'config_control_design', 1994, #153 ) ;
#44 = CC_DESIGN_PERSON_AND_ORGANIZATION_ASSIGNMENT ( #54, #30, ( #126 ) ) ;
#45 = VERTEX_POINT ( 'NONE', #50 ) ;
#46 = PERSON ( 'UNSPECIFIED', 'UNSPECIFIED', 'UNSPECIFIED', ('UNSPECIFIED'), ('UNSPECIFIED'), ('UNSPECIFIED') ) ;
#47 = ORIENTED_EDGE ( 'NONE', *, *, #128, .T. ) ;
#48 = LINE ( 'NONE', #5, #49 ) ;
#49 = VECTOR ( 'NONE', #89, 1000.000000000000000 ) ;
#50 = CARTESIAN_POINT ( 'NONE',  ( -3.000000000000002665, 3.110602869834276865E-15, -25.39999999999999858 ) ) ;
#51 = DIRECTION ( 'NONE',  ( 0.000000000000000000, 0.000000000000000000, -1.000000000000000000 ) ) ;
#52 = CALENDAR_DATE ( 2020, 24, 12 ) ;
#53 = SECURITY_CLASSIFICATION_LEVEL ( 'unclassified' ) ;
#54 = PERSON_AND_ORGANIZATION ( #46, #42 ) ;
#55 = VECTOR ( 'NONE', #156, 1000.000000000000000 ) ;
#56 = CALENDAR_DATE ( 2020, 24, 12 ) ;
#57 = ORIENTED_EDGE ( 'NONE', *, *, #128, .F. ) ;
#58 = SECURITY_CLASSIFICATION ( '', '', #53 ) ;
#59 = EDGE_LOOP ( 'NONE', ( #142, #47, #3, #99 ) ) ;
#60 = AXIS2_PLACEMENT_3D ( 'NONE', #169, #109, #37 ) ;
#61 = DIRECTION ( 'NONE',  ( -0.000000000000000000, 0.000000000000000000, 1.000000000000000000 ) ) ;
#62 =( GEOMETRIC_REPRESENTATION_CONTEXT ( 3 ) GLOBAL_UNCERTAINTY_ASSIGNED_CONTEXT ( ( #98 ) ) GLOBAL_UNIT_ASSIGNED_CONTEXT ( ( #152, #148, #81 ) ) REPRESENTATION_CONTEXT ( 'NONE', 'WORKASPACE' ) );
#63 = ORIENTED_EDGE ( 'NONE', *, *, #140, .T. ) ;
#64 = DIRECTION ( 'NONE',  ( 0.000000000000000000, 0.000000000000000000, 1.000000000000000000 ) ) ;
#65 = CIRCLE ( 'NONE', #60, 25.39999999999999858 ) ;
#66 = CYLINDRICAL_SURFACE ( 'NONE', #141, 25.39999999999999858 ) ;
#67 = APPROVAL_STATUS ( 'not_yet_approved' ) ;
#68 = PERSON_AND_ORGANIZATION_ROLE ( 'creator' ) ;
#69 = PRODUCT_RELATED_PRODUCT_CATEGORY ( 'detail', '', ( #126 ) ) ;
#70 = CALENDAR_DATE ( 2020, 24, 12 ) ;
#71 = APPROVAL_DATE_TIME ( #174, #167 ) ;
#72 = AXIS2_PLACEMENT_3D ( 'NONE', #90, #93, #20 ) ;
#73 = ORIENTED_EDGE ( 'NONE', *, *, #14, .T. ) ;
#74 = CLOSED_SHELL ( 'NONE', ( #115, #103, #125, #175 ) ) ;
#75 = CARTESIAN_POINT ( 'NONE',  ( -3.000000000000000000, 3.110602869834276865E-15, -25.39999999999999858 ) ) ;
#76 = EDGE_LOOP ( 'NONE', ( #119, #122 ) ) ;
#77 = CARTESIAN_POINT ( 'NONE',  ( 3.000000000000002665, 0.000000000000000000, 25.39999999999999858 ) ) ;
#78 = FACE_OUTER_BOUND ( 'NONE', #76, .T. ) ;
#79 = CC_DESIGN_APPROVAL ( #11, ( #163 ) ) ;
#80 = CARTESIAN_POINT ( 'NONE',  ( -3.000000000000000000, 0.000000000000000000, 0.000000000000000000 ) ) ;
#81 =( NAMED_UNIT ( * ) SI_UNIT ( $, .STERADIAN. ) SOLID_ANGLE_UNIT ( ) );
#82 = PERSON_AND_ORGANIZATION ( #46, #42 ) ;
#83 = EDGE_CURVE ( 'NONE', #149, #164, #48, .T. ) ;
#84 = DATE_AND_TIME ( #9, #12 ) ;
#85 = LOCAL_TIME ( 9, 38, 18.00000000000000000, #143 ) ;
#86 = CALENDAR_DATE ( 2020, 24, 12 ) ;
#87 = DATE_TIME_ROLE ( 'creation_date' ) ;
#88 = AXIS2_PLACEMENT_3D ( 'NONE', #7, #111, #51 ) ;
#89 = DIRECTION ( 'NONE',  ( -1.000000000000000000, -0.000000000000000000, -0.000000000000000000 ) ) ;
#90 = CARTESIAN_POINT ( 'NONE',  ( 3.000000000000002665, 0.000000000000000000, 0.000000000000000000 ) ) ;
#91 = EDGE_CURVE ( 'NONE', #45, #164, #165, .T. ) ;
#92 = CARTESIAN_POINT ( 'NONE',  ( -3.000000000000002665, 0.000000000000000000, 0.000000000000000000 ) ) ;
#93 = DIRECTION ( 'NONE',  ( -1.000000000000000000, -0.000000000000000000, -0.000000000000000000 ) ) ;
#94 = COORDINATED_UNIVERSAL_TIME_OFFSET ( 8, 0, .AHEAD. ) ;
#95 = PERSON_AND_ORGANIZATION_ROLE ( 'design_supplier' ) ;
#96 = AXIS2_PLACEMENT_3D ( 'NONE', #114, #171, #117 ) ;
#97 = ORIENTED_EDGE ( 'NONE', *, *, #140, .F. ) ;
#98 = UNCERTAINTY_MEASURE_WITH_UNIT (LENGTH_MEASURE( 1.000000000000000082E-05 ), #152, 'distance_accuracy_value', 'NONE');
#99 = ORIENTED_EDGE ( 'NONE', *, *, #91, .F. ) ;
#100 = CARTESIAN_POINT ( 'NONE',  ( -3.000000000000002665, 0.000000000000000000, 25.39999999999999858 ) ) ;
#101 = CC_DESIGN_PERSON_AND_ORGANIZATION_ASSIGNMENT ( #102, #95, ( #107 ) ) ;
#102 = PERSON_AND_ORGANIZATION ( #46, #42 ) ;
#103 = ADVANCED_FACE ( 'NONE', ( #139 ), #66, .T. ) ;
#104 = PERSON_AND_ORGANIZATION ( #46, #42 ) ;
#105 = LOCAL_TIME ( 9, 38, 18.00000000000000000, #147 ) ;
#106 = APPROVAL_DATE_TIME ( #84, #11 ) ;
#107 = PRODUCT_DEFINITION_FORMATION_WITH_SPECIFIED_SOURCE ( 'ANY', '', #126, .NOT_KNOWN. ) ;
#108 = EDGE_LOOP ( 'NONE', ( #63, #73, #110, #33 ) ) ;
#109 = DIRECTION ( 'NONE',  ( -1.000000000000000000, -0.000000000000000000, -0.000000000000000000 ) ) ;
#110 = ORIENTED_EDGE ( 'NONE', *, *, #154, .F. ) ;
#111 = DIRECTION ( 'NONE',  ( 1.000000000000000000, 0.000000000000000000, 0.000000000000000000 ) ) ;
#112 = DIRECTION ( 'NONE',  ( 0.000000000000000000, 0.000000000000000000, 1.000000000000000000 ) ) ;
#113 = COORDINATED_UNIVERSAL_TIME_OFFSET ( 8, 0, .AHEAD. ) ;
#114 = CARTESIAN_POINT ( 'NONE',  ( 0.000000000000000000, 0.000000000000000000, 0.000000000000000000 ) ) ;
#115 = ADVANCED_FACE ( 'NONE', ( #6 ), #35, .T. ) ;
#116 = APPROVAL_DATE_TIME ( #144, #2 ) ;
#117 = DIRECTION ( 'NONE',  ( 1.000000000000000000, 0.000000000000000000, 0.000000000000000000 ) ) ;
#118 = CC_DESIGN_PERSON_AND_ORGANIZATION_ASSIGNMENT ( #161, #127, ( #58 ) ) ;
#119 = ORIENTED_EDGE ( 'NONE', *, *, #154, .T. ) ;
#120 = DIRECTION ( 'NONE',  ( -1.000000000000000000, -0.000000000000000000, -0.000000000000000000 ) ) ;
#121 = PLANE ( 'NONE',  #88 ) ;
#122 = ORIENTED_EDGE ( 'NONE', *, *, #91, .T. ) ;
#123 = PRODUCT_DEFINITION_SHAPE ( 'NONE', 'NONE',  #163 ) ;
#124 = CARTESIAN_POINT ( 'NONE',  ( -3.000000000000000000, 0.000000000000000000, 0.000000000000000000 ) ) ;
#125 = ADVANCED_FACE ( 'NONE', ( #155 ), #150, .F. ) ;
#126 = PRODUCT ( 'QB-CTZHWP-50.8-633-M', 'QB-CTZHWP-50.8-633-M', '', ( #8 ) ) ;
#127 = PERSON_AND_ORGANIZATION_ROLE ( 'classification_officer' ) ;
#128 = EDGE_CURVE ( 'NONE', #17, #149, #151, .T. ) ;
#129 = PERSON_AND_ORGANIZATION_ROLE ( 'creator' ) ;
#130 = CC_DESIGN_PERSON_AND_ORGANIZATION_ASSIGNMENT ( #131, #129, ( #163 ) ) ;
#131 = PERSON_AND_ORGANIZATION ( #46, #42 ) ;
#132 = EDGE_LOOP ( 'NONE', ( #97, #57 ) ) ;
#133 = AXIS2_PLACEMENT_3D ( 'NONE', #166, #23, #136 ) ;
#134 = CC_DESIGN_APPROVAL ( #167, ( #58 ) ) ;
#135 = CC_DESIGN_DATE_AND_TIME_ASSIGNMENT ( #13, #87, ( #163 ) ) ;
#136 = DIRECTION ( 'NONE',  ( 0.000000000000000000, 0.000000000000000000, 1.000000000000000000 ) ) ;
#137 = CC_DESIGN_PERSON_AND_ORGANIZATION_ASSIGNMENT ( #32, #68, ( #107 ) ) ;
#138 = LINE ( 'NONE', #75, #55 ) ;
#139 = FACE_OUTER_BOUND ( 'NONE', #59, .T. ) ;
#140 = EDGE_CURVE ( 'NONE', #149, #17, #16, .T. ) ;
#141 = AXIS2_PLACEMENT_3D ( 'NONE', #124, #19, #112 ) ;
#142 = ORIENTED_EDGE ( 'NONE', *, *, #14, .F. ) ;
#143 = COORDINATED_UNIVERSAL_TIME_OFFSET ( 8, 0, .AHEAD. ) ;
#144 = DATE_AND_TIME ( #56, #36 ) ;
#145 = AXIS2_PLACEMENT_3D ( 'NONE', #92, #24, #64 ) ;
#146 = APPROVAL_ROLE ( '' ) ;
#147 = COORDINATED_UNIVERSAL_TIME_OFFSET ( 8, 0, .AHEAD. ) ;
#148 =( NAMED_UNIT ( * ) PLANE_ANGLE_UNIT ( ) SI_UNIT ( $, .RADIAN. ) );
#149 = VERTEX_POINT ( 'NONE', #77 ) ;
#150 = PLANE ( 'NONE',  #10 ) ;
#151 = CIRCLE ( 'NONE', #72, 25.39999999999999858 ) ;
#152 =( LENGTH_UNIT ( ) NAMED_UNIT ( * ) SI_UNIT ( .MILLI., .METRE. ) );
#153 = APPLICATION_CONTEXT ( 'configuration controlled 3d designs of mechanical parts and assemblies' ) ;
#154 = EDGE_CURVE ( 'NONE', #164, #45, #65, .T. ) ;
#155 = FACE_OUTER_BOUND ( 'NONE', #132, .T. ) ;
#156 = DIRECTION ( 'NONE',  ( -1.000000000000000000, -0.000000000000000000, -0.000000000000000000 ) ) ;
#157 = LOCAL_TIME ( 9, 38, 18.00000000000000000, #94 ) ;
#158 = APPROVAL_ROLE ( '' ) ;
#159 = DESIGN_CONTEXT ( 'detailed design', #153, 'design' ) ;
#160 = APPROVAL_PERSON_ORGANIZATION ( #104, #11, #158 ) ;
#161 = PERSON_AND_ORGANIZATION ( #46, #42 ) ;
#162 = PERSON_AND_ORGANIZATION ( #46, #42 ) ;
#163 = PRODUCT_DEFINITION ( 'UNKNOWN', '', #107, #159 ) ;
#164 = VERTEX_POINT ( 'NONE', #100 ) ;
#165 = CIRCLE ( 'NONE', #145, 25.39999999999999858 ) ;
#166 = CARTESIAN_POINT ( 'NONE',  ( 3.000000000000002665, 0.000000000000000000, 0.000000000000000000 ) ) ;
#167 = APPROVAL ( #40, 'UNSPECIFIED' ) ;
#168 = AXIS2_PLACEMENT_3D ( 'NONE', #80, #120, #22 ) ;
#169 = CARTESIAN_POINT ( 'NONE',  ( -3.000000000000002665, 0.000000000000000000, 0.000000000000000000 ) ) ;
#170 = COORDINATED_UNIVERSAL_TIME_OFFSET ( 8, 0, .AHEAD. ) ;
#171 = DIRECTION ( 'NONE',  ( 0.000000000000000000, 0.000000000000000000, 1.000000000000000000 ) ) ;
#172 = MANIFOLD_SOLID_BREP ( 'Ðý×', #74 ) ;
#173 = APPROVAL_STATUS ( 'not_yet_approved' ) ;
#174 = DATE_AND_TIME ( #86, #85 ) ;
#175 = ADVANCED_FACE ( 'NONE', ( #78 ), #121, .F. ) ;
ENDSEC;
END-ISO-10303-21;
